2 Minutos (Dos Minutos)

2 Minutos (Dos Minutos) - Ya No Sos Igual bass tab

Your rating:
#-- DOS MINUTOS  - SOUTH AMERICAN BAND- ARGENTINA-----------------------------#


Author/Artist: Dos Minutos
Title: Ya No Sos Igual
Album: Valentin Alsina
Transcribed by: Patricio Moreno
Email: pachuko@ecuarock.com

THE TAB BY PINTO WAS VERY OFF, HERE�S HOW IT�S CORRECTLY PLAYED.
commmentaries to pachuko@ecuarock.com


G-|------------------------------------------------------------------------
D-|------------------------------------------------------------------------
A-|8-888888-8-888888\3-333333-3-333333/5-555555-5-555555\1-111111-1-111111-
E-|------------------------------------------------------------------------
intro(after the drums)


G----------------------------------------------------------|
D----------------------------------------------------------|
A-8888888888888\3333333333333/5555555555555\1111111111111--|
E----------------------------------------------------------|
 guitar enters             x6


G-|------------------------------------------------------------------------
D-|------------------------------------------------------------------------
A-|8-888888-8-888888\3-333333-3-333333/5-555555-5-555555\1-111111-1-111111-
E-|------------------------------------------------------------------------
 chourus: Ya no sos igual, ya no sos igual    (same as intro)


G-----------------------------------|---------------------|-
D-----------------------------------|---------------------|-
A-x-1-11111-5-555---x-1-11111-5-555-|---------------------|-
E-----------------------------------|---------------------|-
 after of "Sos un mili.."     x2                 intro x2

G----------------------------------------------------------|
D----------------------------------------------------------|
A-888888888888\33333333333333/5555555555555\1111111111111--|
E----------------------------------------------------------|
                    x3

G-|------------------------------------------------------------------------
D-|------------------------------------------------------------------------
A-|8-888888-8-888888\3-333333-3-333333/5-555555-5-555555\1-111111-1-111111-
E-|------------------------------------------------------------------------
 chorus: Ya no sos igual, ya no sos igual


G-----------------------------------|
D-----------------------------------|
A-x-1-11111-5-555---x-1-11111-5-555-|
E-----------------------------------|
 after of "Sos un mili.."      x2

F----------------------------------------|-
D----------------------------------------|-
A-x-5-55555-x----------------------------|-
E-------------5-55555-x-7-77777-x-3-33333|-
then "por, sos buchon de la pol... x2

G-|-----------|---------------------------------------------|
D-|-----------|---------------------------------------------|
A-|-----------|-8888888888\3333333333/5555555555\1111111111-|
E-|--x-3-33---|---------------------------------------------|
 guitar slide   chourus: Ya no sos. (speed increases)

G-------------|
D-------------|
A-x-111-x-555-|
E-------------|
x4

G-|---------|
D-|---------|
A-|--5~~~~--|
E-|---------|
  ending
VERY EASY SONG. ENJOY.
corrections,if any, to pachuko@ecuarock.com
Get this song at:
bol.com
amazon.com

Copyrights:

Author: ?

Composer: ?

Publisher: ?

Details:

Language: English

Share your thoughts

This form is protected by reCAPTCHA and the Google Privacy Policy and Terms of Service apply.

0 Comments found