28 Days

28 Days - Say What bass tab

Your rating:
ARTIST � 28 Days
SONG � Say What?
INSTRUMENT - Bass


The strumming/picking times aren�t exact but close enough

INTRO
---------------------------------------------------------------------------------------
---------------------------------------------------------------------------------------
---------------------------------------5----77---55---77---55---7775544----(x4)
----5---7-8-----1212-11-8----(x2)------------------------------------------------

VERSES

---------------------------------------------------------------------------------------
---------------------------------------------------------------------------------------
-----5----77---55---77---55---7775544------------------------------------------
---------------------------------------------------------------------------------------

CHORUS

---------------------------------------------------------------------------------------
---------------------------------------------------------------------------------------
----------------------7777-----------------------------------------------------------
----5-555----33-----------333-----------------------------------------------------

BRIDGE/OUTRO

--------------------------------------------------------------------------------------
--------------------------------------------------------------------------------------
--------------------------------------------------------------------------------------
---------------5-----7-8-----1212---11--8----------------------------------------

(you can figure how many times 2 play each coz I cant be bothered)

SONG ORDER -  INTRO
                              VERSE
                              CHORUS
                              VERSE
                              CHORUS
                              BRIDGE
                              VERSE
                              CHORUS
                              BRIDGE/OUTRO

Tabbed by Jaz�. My first tab ever so yeah� Don�t  bag it!!! Any Comments and all that  :- Jmcculkin@hotmail.com 28 Days ARE  AWESOME!!!!
Get this song at:
bol.com
amazon.com

Copyrights:

Author: Apollo 440, Damian Gardiner, Howard Gray, Jay Dunne, Noko, Scott Murray (4), Simon Hepburn, Trevor Gray

Composer: ?

Publisher: Mushroom Records Pty. Ltd.

Details:

Released in: 2006

Language: English

Share your thoughts

This form is protected by reCAPTCHA and the Google Privacy Policy and Terms of Service apply.

0 Comments found