59 Times The Pain

59 Times The Pain - Got It All In Sight bass tab

Your rating:
Tabbed by: Totoro32

Artist - 59 Times the Pain
Song Title - Got it All in Sight

Tuning: D#,G#,D,G

Main Riff:

G |---------------------------------------------------------------------|
D |---------------------------------------------------------------------|
G#|------------------5----------------5------5------5-------------5555--|
D#|--7777-7777-7777-7-3333-3333-3333-3-0-0000-3-3333-7777-7777-5-7------|


Fill #1:

G |-------------------------------------------|
D |-------------------------------------------|
G#|-------------------------------------------|
D#|--7777-7777-7777-7777-7777-7777-7777-7777--|


Riff #1:

G |-----------------------------------------|
D |-----------------------------------------|
G#|---5-5-5-5-------------------------------|
D#|--7-5-3-3-0-2-777-5-777-5-777-5-777-5-7--|


Riff #2:

G |--------------------------------|
D |--------------------------------|
G#|---------------------5555-5555--|
D#|--7-7-5-3-0-7777-7777-----------|


Ending Riff:

G |-------------------------------------------------------------------------|
D |-------------------------------------------------------------------------|
G#|------------------5----------------5------5------5-------------555-------|
D#|--7777-7777-7777-7-3333-3333-3333-3-0-0000-3-3333-7777-7777-5-7---7\1p0--|

Play the song in this order:

-Main Riff     x1
-Fill #1       x1
-Main Riff     x2
-Fill #1       x1
-Riff #1       x1
-Main Riff     x2
-Fill #1       x1
-Riff #1       x2
-Riff #2       x2
-Riff #1       x2
-Ending Riff   x1


For timing of riffs listen to the song.
You can e-mail me with questions and crap at tototoro32@yahoo.com

-Totoro32
Get this song at:
bol.com
amazon.com

Copyrights:

Author: ?

Composer: ?

Publisher: Burning Heart Records

Details:

Released in: 1999

Language: English

Share your thoughts

This form is protected by reCAPTCHA and the Google Privacy Policy and Terms of Service apply.

0 Comments found