AFI

AFI - 6 To bass tab

Your rating:
band: afi
song: 6 to 8

h= hammer on
p= pull off
`= let it ring
*= quick pause
Intro:
G----------------------
D--5h7---5h7-----------
A-----0-----0----------
E----------------------

G----------------------------
D----------------------5h7---
A------5`---------5`------0--
E--5-8--------5-8------------
Verse(repeat 4x):
G---------------------------|(2nd x play this after the verse)-
D---------------------------|--9-7-5-7-------------------------
A-----------------5-5--5-5--|----------------------------------
E--5-5--58-8--58p7----8-----|----------------------------------
Chorus(repeat 4x):
G---------------------------------
D---------------------------------
A--33333*-------------------------
E--------3333333300000000000000---
Bridge(play the note as long as u want but make the right change):
G---------------------
D---------------------
A--000-333-555555555--
E---------------------
Order:
intro
verse
chorus
verse
chorus
bridge
then the chorus three times and pause on the first note the fourth time
then bang on the e string open and then play the chorus behind the solo
end on: G----------------------
        D----------------------
        A--3-------------------
        E---3-0`---------------
Get this song at:
bol.com
amazon.com

Copyrights:

Author: ?

Composer: ?

Publisher: ?

Details:

Language: English

Share your thoughts

This form is protected by reCAPTCHA and the Google Privacy Policy and Terms of Service apply.

0 Comments found