Napoleon Coste

Napoleon Coste - Quadrille guitar tab

Your rating:
Quadrille


                                                                  Napol�on COSTE
Guitare




E||-----------|--2h3-0p2-------|--5h7-4p7-5-----|--2--3p2-0-2p3-2-----|
B||-----------|----------3-----|----------------|-----------------5p3-|
G||--------2--|----------------|----------------|---------------------|
D||-----------|--0-------0-----|--0-------0-----|--0------------------|
A||-----------|------0------0--|------0------0--|---------------------|
E||-----------|----------------|----------------|---------------------|



------2p0---------|--2h3-0p2-------|--5h7-4p7-5-----|--2--0h2-5p3-0---|
--4h5-----3p2-----|----------3-----|----------------|---------------2-|
--------------4p2-|----------------|----------------|-----------------|
------------------|--0-------0-----|--0-------0-----|--0--------------|
--0---------------|------0------0--|------0------0--|---------0-------|
------------------|----------------|----------------|-----------------|



--0----------|-----------------|--2----2-2-2--0--|------------------|
--2-----3----|--0----0-0-3--0--|-----------------|----3---2---3---0-|
--0-----2----|-----------------|-----------------|------------------|
--0-----4----|-----------0-----|--4--4-----4--2--|--0-------0-------|
-----0--5----|--2--2--------2--|-----------------|------4-------2---|
-------------|-----------------|-----------------|------------------|



----2----------|--3--2h3-5p3-2p0-|--2--3p2---------|-----2-----2--|
--2-----2------|--0--------------|--3------5p3-2p0-|--2-----2-----|
------3--------|--0--------------|--4--------------|--3-----3-----|
----------4----|-----------------|-----------------|-----4-----4--|
---------------|-----------------|-----------------|--------------|
--2------------|--0--------------|--2--------------|--------------|



--------------|----0---0---0---0-|----0---0---0---0-|----0---0---0-2-3-|
-----3-----3--|--3---3---3---3---|--3---3---3---3---|--3---3---3-------|
--4--4--4-----|------4-----------|------5-----------|------4-----------|
--4--4--4-----|--5-------5-------|--4-------4-------|--5-------5-------|
--2-----2-----|------------------|------------------|------------------|
--------------|------------------|------------------|------------------|



--4h5-3-2---------|----0---0---0---0-|----0---0---0---0-|--5p3-2-0---------|
----------5-3-2h5-|--3---3---3---3---|--3---3---3---3---|----------3p1-0---|
------------------|------4-----------|------5-----------|----------------2-|
--0---------------|--5-------5-------|--4-------4-------|--0---------------|
------------------|------------------|------------------|------------------|
------------------|------------------|------------------|------------------|



---------------|--2h3-0p2-------|--5h7-4p7-5-----|--2--3p2-0-2p3-2-----|
---------------|----------3-----|----------------|-----------------5p3-|
--0------0--2--|----------------|----------------|---------------------|
-------0-------|--0-------0-----|--0-------0-----|--0------------------|
-----2---------|------0------0--|------0------0--|---------------------|
--3------------|----------------|----------------|---------------------|



------2p0---------|--2h3-0p2-------|--5h7-4p7-5-----|--2--0h2-5p3-0---|
--4h5-----3p2-----|----------3-----|----------------|---------------2-|
--------------4p2-|----------------|----------------|-----------------|
------------------|--0-------0-----|--0-------0-----|--0--------------|
--0---------------|------0------0--|------0------0--|---------0-------|
------------------|----------------|----------------|-----------------|



--0----------||
--2-----3----||
--0-----2----||
--0-----4----||
-----0--5----||
-------------||
Get this song at:
bol.com
amazon.com

Copyrights:

Author: ?

Composer: ?

Publisher: ?

Details:

Language: English

Share your thoughts

This form is protected by reCAPTCHA and the Google Privacy Policy and Terms of Service apply.

0 Comments found