Rage Against the Machine

Rage Against the Machine - Bullet In Your Head bass tab

Your rating:
Tittle-Bullet in your head
Artist-Rage Against The Machine
Standard Tuning

Verse

G-------------------------7------|
D-------------------------6------|
A�7-7----7-7-7---------------|
E---------------------0*---------|

There are two different variations of the verse

This is the second one
G-------------------------6/7------|
D-------------------------5/6------|
A�7-7----7-7-7-----------------|
E---------------------0*-----------|

And this is the last variation of the verse
G------------------------------7h9-|
D-------------------------7h9------|
A�7-7----7-7-7------------------|
E---------------------0*------------|

Chorus

G------------------------------------------------|
D------------------------------------------------|
A------------0*----------------2------0--------|
E�0�3--------------------------3-------0*--|

Bridge

G-----------------------------------------------|
D-----------------------------------------------| Do this lots of times
A-7-7-7-7-7-5--------------------------------|
E------------------5-6-5�0�3-5-3-0-0-0--|

Outro

G---------------------------|
D---------------------------|
A---77----------77--------|
E----------xxx-------xxx--| Just repeat this over and over

Legend
xxx-cut of note
*-let note ring
/-slide down
Get this song at:
bol.com
amazon.com

Copyrights:

Author: ?

Composer: ?

Publisher: ?

Details:

Language: English

Appearing on: Guilty , Blown Away (1997) , Blown Away (1997) , Forget Your Existence! (1994) , Look Back In Anger (1996) , The Battle Of Indio, Ca (1999)

Share your thoughts

This form is protected by reCAPTCHA and the Google Privacy Policy and Terms of Service apply.

0 Comments found