40 Below Summer

40 Below Summer - Wither Away gitaar tab

Je score:
Band: 40 Below Summer
Song: Wither Away
Album: Invitation to the Dance
Tabber: Jos� Antilibidio and Steve Mitchell
Tuning: Standard (EADGBE)


Acoustic:
E---2------222----3---00000
B---2------222----3---00000
G--44-4--4-444----4---11111
D--44-4--4-444--5-5---22222
A--22-2--2-222--5-5---00000
E--22-2--2-222--3-3-0-00000
                * *

*If you want, you can play a variation of a G Chord like this:

E--3
B--3
G--0
D--0
A--x
E--3
This might sound a little better.

Electric
E---------------------------
B---------------------------
G--4--4---9/8---------------
D--4--4---x-x--5-5-5---7-7-7
A--2--2---7/6--5-5-5---7-7-7
E--2--2-x------3-3-3-0-5-5-5

E------------------------------
B------------------------------
G--4--4---9/8\11---------------
D--4--4---x-x-----5-5-5---7-7-7
A--2--2---7/6\-9--5-5-5---7-7-7
E--2--2-x---------3-3-3-0-5-5-5

E---------------------------
B---------------------------
G--4--4---9/8---------------
D--4--4---x-x--5-5-5---7-7-7
A--2--2---7/6--5-5-5---7-7-7
E--2--2-x------3-3-3-0-5-5-5

E------------------------------
B------------------------------
G--4--4---9/8\11-12-11-9-8-----
D--4--4---x-x-----x--x-x-x-----
A--2--2---7/6\-9-10--9-7-6-----
E--2--2-x----------------------

Verse
B-------12-------------------
G----------11--12p11h12p11---
D--9-9---------------------12

B-------12-----------------------------12---
G----------11--12p11h12p11-14p12h14p12------
D--9-9------------------------------------10

"Hard to swallow" bridge to Chorus:

G--44-44
D--44-44
A--22-22
E-------
|------P.M|

Chorus

E---------------------------
B---------------------------
G--4--4-4-4---------------
D--4--4-4-4------5-5-5---7-7-7
A--2--2-2-2------5-5-5---7-7-7
E--2--2-2-2------3-3-3-0-5-5-5

Guitar 2 enters in with the octaves while guitar 1 does the suspended chords, but you can just play the beggining over for the 2nd part of the chorus:

E---------------------------
B---------------------------
G--4--4---9/8---------------
D--4--4---x-x--5-5-5---7-7-7
A--2--2---7/6--5-5-5---7-7-7
E--2--2-x------3-3-3-0-5-5-5

So on a so forth.

Goto Verse, then chorus, then the screaming part goes:

A--3-2-3-2-3-2-3-2
E--3-2-3-2-3-2-3-2
-----------------P.M

Go back to acoustic part, then to verse to finish up.
Vind dit lied op:
bol.com
amazon.com

Copyrights:

Auteur: ?

Componist: ?

Publisher: ?

Details:

Taal: Engels

Komt voor op: Invitation to the Dance (2001)

Deel je mening

Dit formulier wordt beschermd door reCAPTCHA en de Google Privacy Policy en Servicevoorwaarden zijn daarbij van toepassing.

0 Reacties gevonden