Mägo De Oz

Mägo De Oz - La Costa Del Silencio gitaar tab

Je score:
cuau*

��que tal!? �como les va?, bueno aqui les pongo esta tablatura de mago espero que les guste.
y estoy casi seguro que debe tener errores.... si es asi, quiero que me lo digan
escribiemdome a: cuau_vivelerock@hotmail.com y nosolo para eso por si no le entienden o por
si quieres que saque alguna cancion (aver si puedo) pero en fin espero que les guste...
       ("yo no se muchisimo de guitarra pero con lo que te pueda ayudar")
                                     GRACIAS*


"ESTE ES LO QUE SE ESCUCHA AL PRINCIPIO. NO ES DE GUITARRA... POR ESO SE OYE BIEN CUOLERO"
e|------------------------------------
b|------------------------------------
g|------------------------------------
d|---------------------------------5--
a|-5-5-5-5---555555-777777-8888888----
e|------------------------------------
             * (aqui entra la guitarra acustica)

guitarra ACUSTICA (ENTRA ANTES DE LA GUITARRA ELECTRICA)
e|-1---0---1---3---------
b|-3---0---1---0---------
g|-2---0---2---0---------
d|-0---2---3---0---------
a|-0---2---3---2---------
e|-0---0---1---3---------


guitarra ELECTRICA
e|----------------------------------------------------------
b|----------------------------------------------------------
g|--------5-5555-7-7777-5-5555-3-3333-5-5555--------5-5555--
d|-3-3333-5-5555-7-7777-5-5555-3-3333-5-5555-3-3333-5-5555--
a|-3-3333-3-3333-5-5555-3-3333-1-1111-3-3333-3-3333-3-3333--
e|-1-1111------------------------------------1-1111---------
PM   ....   ....   ....   ....   ....   ....   ....   ....


e|-----------------------------------------------------------------------------
b|----------------------------------------------------------(fijate aqui*)-----
g|--------5-5555-7-7777-5-5555-3-3333-5-5555--------5-5555--77-7-77-7-77-7-3-5-
d|-3-3333-5-5555-7-7777-5-5555-3-3333-5-5555-3-3333-5-5555--77-7-77-7-77-7-3-5-
a|-3-3333-3-3333-5-5555-3-3333-1-1111-3-3333-3-3333-3-3333--55-5-55-5-55-5-1-3-
e|-1-1111------------------------------------1-1111----------------------------
PM   ....   ....   ....   ....   ....   ....   ....   ....     .    .    .


dm
El mar escup�a un lamento

Tan tenue que nadie lo oy�

Era un dolor de tan adentro
                        am c
Que toda una costa muri�

       (lo de aqui abajo estoy casi seguro que esta mal
         pero lo importante es lo de la electrica �no?)

f       c           dm           am
Llora lamentos la nube que enfermo
f            c              dm       c
Y escribe espantos en la arena el dolor
f            c           dm           am
Arrulla el miedo a un delf�n que bebi�
f            c            dm
De un agua negra, su suerte emigro...


              (*ven, quiero oir .......)
e|-------------------------------------------------
b|-------------------------------------------------
g|-------3-5------------5-5-5-5-5--7-7-7-7-7-33-55-
d|-------3-5--3-3-3-3-3-5-5-5-5-5--7-7-7-7-7-33-55-
a|-------1-3--3-3-3-3-3-3-3-3-3-3--5-5-5-5-5-11-33-
e|-111111-----1-1-1-1-1----------------------------
pm ......       .   .     .   .      .   .

e|--------------------------------------
b|--------------------------------------
g|-----------5-5-5-5-5--7-7-7-7-7-33-55-
d|-3-3-3-3-3-5-5-5-5-5--7-7-7-7-7-33-55-
a|-3-3-3-3-3-3-3-3-3-3--5-5-5-5-5-11-33-
e|-1-1-1-1-1----------------------------
pm   .   .     .   .      .   .

Ven, quiero o�r tu vos,

Y, si aun nos queda amor,

Impidamos que esto muera

Ven, pues en tu interior

Esta la soluci�n

De salvar lo bello que queda

        (aaaaaaaaaaaaaaaaaaaaaaa a aaaaaaaaaaaaaaaaaaaa aaaaaaaaaaaaaaaaaaaaah)

                          (intro)
e|----------------------------------------------------------
b|----------------------------------------------------------
g|--------5-5555-7-7777-5-5555-3-3333-5-5555--------5-5555--
d|-3-3333-5-5555-7-7777-5-5555-3-3333-5-5555-3-3333-5-5555--
a|-3-3333-3-3333-5-5555-3-3333-1-1111-3-3333-3-3333-3-3333--
e|-1-1111------------------------------------1-1111---------
PM   ....   ....   ....   ....   ....   ....   ....   ....


e|-----------------------------------------------------------------------------
b|----------------------------------------------------------(*)----------------
g|--------5-5555-7-7777-5-5555-3-3333-5-5555--------5-5555--77-7-77-7-77-7-3-5-
d|-3-3333-5-5555-7-7777-5-5555-3-3333-5-5555-3-3333-5-5555--77-7-77-7-77-7-3-5-
a|-3-3333-3-3333-5-5555-3-3333-1-1111-3-3333-3-3333-3-3333--55-5-55-5-55-5-1-3-
e|-1-1111------------------------------------1-1111----------------------------
PM   ....   ....   ....   ....   ....   ....   ....   ....     .    .    .

dm
Donde se acomoda la usura

Nacen la ambici�n y el poder,

Y este germina en la tierra,
                       am c
Que agoniza por inter�s


f       c        dm           am
Y una gaviota cuenta que decidi�
f         c          dm          c
En acto suicida inmolarse en el sol
f       c           dm           am
R�e desprecios un barco que encallo
f          c           dm
Y se desangra en su lecho la mar


e|-----------------------------------------------------------------------------------
b|-----------------------------------------------------------------------------------
g|-(en su lecho la mar)-----7-7777-7--7777-7-7777------------------7---5---3333-5555-
d|----------------------5---7-7777-7--7777-7-7777--5-5555--5-5555--7---5---3333-5555-
a|----------------------5---5-5555-5--5555-5-5555--5-5555--5-5555--5-5-3-3-1111-3333-
e|----------------------3--------------------------3-3333--5-5555--------------------
pm                            ....    ....   ....    ....    ....    .   .
             (*ven, quiero oir .......)
e|--------------------------------------
b|--------------------------------------
g|-----------5-5-5-5-5--7-7-7-7-7-33-55-
d|-3-3-3-3-3-5-5-5-5-5--7-7-7-7-7-33-55-
a|-3-3-3-3-3-3-3-3-3-3--5-5-5-5-5-11-33-
e|-1-1-1-1-1----------------------------
pm   .   .     .   .      .   .

e|--------------------------------------
b|--------------------------------------
g|-----------5-5-5-5-5--7-7-7-7-7-33-55-
d|-3-3-3-3-3-5-5-5-5-5--7-7-7-7-7-33-55-
a|-3-3-3-3-3-3-3-3-3-3--5-5-5-5-5-11-33-
e|-1-1-1-1-1----------------------------
pm   .   .     .   .      .   .

Ven, quiero o�r tu vos,

Y, si aun nos queda amor,

Impidamos que esto muera

Ven, pues en tu interior

Esta la soluci�n

De salvar lo bello que queda

   (aaaaaaaaaaaa aaaaaaaaaaaaaaaa aaaaaaaaaaaaaaaaaaa aaaa aaah)

e|----------------------------------------------------------
b|----------------------------------------------------------
g|--------5-5555-7-7777-5-5555-3-3333-5-5555--------5-5555--
d|-3-3333-5-5555-7-7777-5-5555-3-3333-5-5555-3-3333-5-5555--
a|-3-3333-3-3333-5-5555-3-3333-1-1111-3-3333-3-3333-3-3333--
e|-1-1111------------------------------------1-1111---------
PM   ....   ....   ....   ....   ....   ....   ....   ....


e|----------------------------------------------------------
b|----------------------------------------------------------
g|--------5-5555-7-7777-5-5555-3-3333-5-5555--------5-5555--
d|-3-3333-5-5555-7-7777-5-5555-3-3333-5-5555-3-3333-5-5555--
a|-3-3333-3-3333-5-5555-3-3333-1-1111-3-3333-3-3333-3-3333--
e|-1-1111------------------------------------1-1111---------
PM   ....   ....   ....   ....   ....   ....   ....   ....

e|-------------------------------------------
b|-------------------------------------------
g|-------------------------------------------
d|------5-55-77---5-55--33---5-55------5-55--  esto se repite
a|-33---3-33-55-5-3-33--11-1-3-33-33---3-33--
e|-11-1---------------------------11-1-------
pm    .         .          .         .

Hagamos una revoluci�n

Que nuestro l�der sea el sol

Y nuestro ejercito

Sean mariposas



Por bandera otro amanecer

Y por conquista comprender

Que hay que cambiar

Las espadas por rosas



Mientras te quede aliento

Ve a buscar con el viento

Ayuda, pues apenas queda tiempo�

e|----------------------------------------------
b|----------------------------------------------
g|----------------------------------------------
d|----------------------------------------------
a|-5555555555-77777777777-888888888888--11-33---
e|----------------------------------------------
pm .......... ........... ............


e|--------------------------------------
b|--------------------------------------
g|-----------5-5-5-5-5--7-7-7-7-7-33-55-
d|-3-3-3-3-3-5-5-5-5-5--7-7-7-7-7-33-55-
a|-3-3-3-3-3-3-3-3-3-3--5-5-5-5-5-11-33-
e|-1-1-1-1-1----------------------------
pm   .   .     .   .      .   .

e|--------------------------------------
b|--------------------------------------
g|-----------5-5-5-5-5--7-7-7-7-7-33-55-
d|-3-3-3-3-3-5-5-5-5-5--7-7-7-7-7-33-55-
a|-3-3-3-3-3-3-3-3-3-3--5-5-5-5-5-11-33-
e|-1-1-1-1-1----------------------------
pm   .   .     .   .      .   .


Ven, quiero o�r tu vos,

Y, si aun nos queda amor,

Impidamos que esto muera

Ven, pues en tu interior

Esta la soluci�n

De salvar lo bello que queda


e|--------------101213--12-10-----------------10-------
b|-10--13-15-8-----------------13b15r13h15-15----10-8--
g|----------------------------------------------------- (esto es el mini solo)
d|-----------------------------------------------------
a|-----------------------------------------------------
e|-----------------------------------------------------



(aaaaaaaaaaaa aaaaaaaaaaaaaaaa aaaaaaaaaaaaaaaaaaa aaaa aaah)

e|----------------------------------------------------------
b|----------------------------------------------------------
g|--------5-5555-7-7777-5-5555-3-3333-5-5555--------5-5555--
d|-3-3333-5-5555-7-7777-5-5555-3-3333-5-5555-3-3333-5-5555--
a|-3-3333-3-3333-5-5555-3-3333-1-1111-3-3333-3-3333-3-3333--
e|-1-1111------------------------------------1-1111---------
PM   ....   ....   ....   ....   ....   ....   ....   ....


e|----------------------------------------------------------
b|----------------------------------------------------------
g|--------5-5555-7-7777-5-5555-3-3333-5-5555--------5-5555--
d|-3-3333-5-5555-7-7777-5-5555-3-3333-5-5555-3-3333-5-5555--
a|-3-3333-3-3333-5-5555-3-3333-1-1111-3-3333-3-3333-3-3333--
e|-1-1111------------------------------------1-1111---------
PM   ....   ....   ....   ....   ....   ....   ....   ....

             _______________________________________
            / ________                             /\
           / /       /\            tabs           /o/
          / /   ____/_/ ___ ____  ___ ____       /o/
         / /   / __/  //  // _  \/  //   /\     /o/
        / /   / / /  //  // //  /  //   / /    /o/
       / /   /_/_/  //  // //  /  //   / /    /o/
      / /       /  //  //  _  /  //   / /    /o/
     / /_______/\_____//  // /\______/ /    /o/
    /  \_______\/\___//  // / /\_____\/    /o/
   /                 /__//_/ /            /o/
  /                  \__\ \_/            /o/
 /______________________________________/o/
 \______________________________________\/


ESTA CANCION VA DEDICADA PA' MIS AMIGOS DEL (PINCHE) CBTIS DE CONTABILIDAD Y EN ESPESIAL
A GIGIO, CHUY, ALDO, HUGUIYO, IVAN, MONG�S, JUAN Y A RAUL Y BENJA QUE ESTAN EN NUESTRO GRUPO
DE ROCK "ELFO" Y DE LA PREPA (PERDON POR PONER A TANTOS) A JUAN BATERISTA, JORGE (LOS 2 DE ELFO)
Y A BONACHON

                                             GRACIAS* (ALAMEJOR ESTO NO LO VA A LEER NI DIOS)
Vind dit lied op:
bol.com
amazon.com

Copyrights:

Auteur: ?

Componist: ?

Publisher: Warner Music Spain S.L.

Details:

Uitgegeven in: 2003

Taal: Spaans

Komt voor op: Gaia (2003) , Madrid las Ventas (2005)

Deel je mening

Dit formulier wordt beschermd door reCAPTCHA en de Google Privacy Policy en Servicevoorwaarden zijn daarbij van toepassing.

0 Reacties gevonden